ISO-10303-21;
HEADER;
/* Generated by software containing ST-Developer
 * from STEP Tools, Inc. (www.steptools.com) 
 */
/* OPTION: strings as raw bytes, not using required /X/ escapes */

FILE_DESCRIPTION(
/* description */ ('Unknown'),
/* implementation_level */ '2;1');

FILE_NAME(
/* name */ 'SN 6204.2 LED 230V',
/* time_stamp */ '2018-04-27T11:36:05+02:00',
/* author */ ('Unknown'),
/* organization */ ('Unknown'),
/* preprocessor_version */ 'ST-DEVELOPER v16.7',
/* originating_system */ 'DEX',
/* authorisation */ $);

FILE_SCHEMA (('AUTOMOTIVE_DESIGN {1 0 10303 214 3 1 1}'));
ENDSEC;

DATA;
#10=PROPERTY_DEFINITION_REPRESENTATION(#14,#12);
#11=PROPERTY_DEFINITION_REPRESENTATION(#15,#13);
#12=REPRESENTATION('',(#16),#459);
#13=REPRESENTATION('',(#17),#459);
#14=PROPERTY_DEFINITION('pmi validation property','',#464);
#15=PROPERTY_DEFINITION('pmi validation property','',#464);
#16=VALUE_REPRESENTATION_ITEM('number of annotations',COUNT_MEASURE(0.));
#17=VALUE_REPRESENTATION_ITEM('number of views',COUNT_MEASURE(0.));
#18=SHAPE_REPRESENTATION_RELATIONSHIP('','',#297,#19);
#19=ADVANCED_BREP_SHAPE_REPRESENTATION('',(#295),#459);
#20=ORIENTED_EDGE('',*,*,#92,.T.);
#21=ORIENTED_EDGE('',*,*,#93,.T.);
#22=ORIENTED_EDGE('',*,*,#94,.T.);
#23=ORIENTED_EDGE('',*,*,#95,.F.);
#24=ORIENTED_EDGE('',*,*,#96,.F.);
#25=ORIENTED_EDGE('',*,*,#97,.F.);
#26=ORIENTED_EDGE('',*,*,#98,.F.);
#27=ORIENTED_EDGE('',*,*,#99,.F.);
#28=ORIENTED_EDGE('',*,*,#100,.F.);
#29=ORIENTED_EDGE('',*,*,#101,.F.);
#30=ORIENTED_EDGE('',*,*,#102,.F.);
#31=ORIENTED_EDGE('',*,*,#103,.F.);
#32=ORIENTED_EDGE('',*,*,#104,.T.);
#33=ORIENTED_EDGE('',*,*,#105,.T.);
#34=ORIENTED_EDGE('',*,*,#99,.T.);
#35=ORIENTED_EDGE('',*,*,#106,.T.);
#36=ORIENTED_EDGE('',*,*,#107,.F.);
#37=ORIENTED_EDGE('',*,*,#108,.F.);
#38=ORIENTED_EDGE('',*,*,#95,.T.);
#39=ORIENTED_EDGE('',*,*,#109,.F.);
#40=ORIENTED_EDGE('',*,*,#110,.F.);
#41=ORIENTED_EDGE('',*,*,#111,.F.);
#42=ORIENTED_EDGE('',*,*,#97,.T.);
#43=ORIENTED_EDGE('',*,*,#112,.T.);
#44=ORIENTED_EDGE('',*,*,#111,.T.);
#45=ORIENTED_EDGE('',*,*,#113,.F.);
#46=ORIENTED_EDGE('',*,*,#106,.F.);
#47=ORIENTED_EDGE('',*,*,#98,.T.);
#48=ORIENTED_EDGE('',*,*,#108,.T.);
#49=ORIENTED_EDGE('',*,*,#114,.F.);
#50=ORIENTED_EDGE('',*,*,#112,.F.);
#51=ORIENTED_EDGE('',*,*,#96,.T.);
#52=ORIENTED_EDGE('',*,*,#107,.T.);
#53=ORIENTED_EDGE('',*,*,#113,.T.);
#54=ORIENTED_EDGE('',*,*,#110,.T.);
#55=ORIENTED_EDGE('',*,*,#114,.T.);
#56=ORIENTED_EDGE('',*,*,#92,.F.);
#57=ORIENTED_EDGE('',*,*,#105,.F.);
#58=ORIENTED_EDGE('',*,*,#115,.T.);
#59=ORIENTED_EDGE('',*,*,#116,.T.);
#60=ORIENTED_EDGE('',*,*,#93,.F.);
#61=ORIENTED_EDGE('',*,*,#116,.F.);
#62=ORIENTED_EDGE('',*,*,#117,.T.);
#63=ORIENTED_EDGE('',*,*,#118,.T.);
#64=ORIENTED_EDGE('',*,*,#94,.F.);
#65=ORIENTED_EDGE('',*,*,#118,.F.);
#66=ORIENTED_EDGE('',*,*,#119,.T.);
#67=ORIENTED_EDGE('',*,*,#109,.T.);
#68=ORIENTED_EDGE('',*,*,#115,.F.);
#69=ORIENTED_EDGE('',*,*,#104,.F.);
#70=ORIENTED_EDGE('',*,*,#119,.F.);
#71=ORIENTED_EDGE('',*,*,#117,.F.);
#72=ORIENTED_EDGE('',*,*,#100,.T.);
#73=ORIENTED_EDGE('',*,*,#120,.F.);
#74=ORIENTED_EDGE('',*,*,#121,.F.);
#75=ORIENTED_EDGE('',*,*,#122,.T.);
#76=ORIENTED_EDGE('',*,*,#103,.T.);
#77=ORIENTED_EDGE('',*,*,#123,.F.);
#78=ORIENTED_EDGE('',*,*,#124,.F.);
#79=ORIENTED_EDGE('',*,*,#120,.T.);
#80=ORIENTED_EDGE('',*,*,#102,.T.);
#81=ORIENTED_EDGE('',*,*,#125,.F.);
#82=ORIENTED_EDGE('',*,*,#126,.F.);
#83=ORIENTED_EDGE('',*,*,#123,.T.);
#84=ORIENTED_EDGE('',*,*,#101,.T.);
#85=ORIENTED_EDGE('',*,*,#122,.F.);
#86=ORIENTED_EDGE('',*,*,#127,.F.);
#87=ORIENTED_EDGE('',*,*,#125,.T.);
#88=ORIENTED_EDGE('',*,*,#121,.T.);
#89=ORIENTED_EDGE('',*,*,#124,.T.);
#90=ORIENTED_EDGE('',*,*,#126,.T.);
#91=ORIENTED_EDGE('',*,*,#127,.T.);
#92=EDGE_CURVE('',#128,#129,#152,.T.);
#93=EDGE_CURVE('',#129,#130,#153,.T.);
#94=EDGE_CURVE('',#130,#131,#154,.T.);
#95=EDGE_CURVE('',#132,#131,#155,.T.);
#96=EDGE_CURVE('',#133,#132,#156,.T.);
#97=EDGE_CURVE('',#134,#133,#157,.T.);
#98=EDGE_CURVE('',#135,#134,#158,.T.);
#99=EDGE_CURVE('',#128,#135,#159,.T.);
#100=EDGE_CURVE('',#136,#137,#160,.T.);
#101=EDGE_CURVE('',#138,#136,#161,.T.);
#102=EDGE_CURVE('',#139,#138,#162,.T.);
#103=EDGE_CURVE('',#137,#139,#163,.T.);
#104=EDGE_CURVE('',#140,#141,#164,.T.);
#105=EDGE_CURVE('',#141,#128,#165,.T.);
#106=EDGE_CURVE('',#135,#142,#166,.T.);
#107=EDGE_CURVE('',#143,#142,#167,.T.);
#108=EDGE_CURVE('',#132,#143,#168,.T.);
#109=EDGE_CURVE('',#140,#131,#169,.T.);
#110=EDGE_CURVE('',#144,#145,#170,.T.);
#111=EDGE_CURVE('',#134,#144,#171,.T.);
#112=EDGE_CURVE('',#133,#145,#172,.T.);
#113=EDGE_CURVE('',#142,#144,#173,.T.);
#114=EDGE_CURVE('',#145,#143,#174,.T.);
#115=EDGE_CURVE('',#141,#146,#175,.T.);
#116=EDGE_CURVE('',#146,#129,#176,.T.);
#117=EDGE_CURVE('',#146,#147,#177,.T.);
#118=EDGE_CURVE('',#147,#130,#178,.T.);
#119=EDGE_CURVE('',#147,#140,#179,.T.);
#120=EDGE_CURVE('',#148,#137,#180,.T.);
#121=EDGE_CURVE('',#149,#148,#181,.T.);
#122=EDGE_CURVE('',#149,#136,#182,.T.);
#123=EDGE_CURVE('',#150,#139,#183,.T.);
#124=EDGE_CURVE('',#148,#150,#184,.T.);
#125=EDGE_CURVE('',#151,#138,#185,.T.);
#126=EDGE_CURVE('',#150,#151,#186,.T.);
#127=EDGE_CURVE('',#151,#149,#187,.T.);
#128=VERTEX_POINT('',#385);
#129=VERTEX_POINT('',#386);
#130=VERTEX_POINT('',#388);
#131=VERTEX_POINT('',#390);
#132=VERTEX_POINT('',#392);
#133=VERTEX_POINT('',#394);
#134=VERTEX_POINT('',#396);
#135=VERTEX_POINT('',#398);
#136=VERTEX_POINT('',#402);
#137=VERTEX_POINT('',#403);
#138=VERTEX_POINT('',#405);
#139=VERTEX_POINT('',#407);
#140=VERTEX_POINT('',#410);
#141=VERTEX_POINT('',#411);
#142=VERTEX_POINT('',#414);
#143=VERTEX_POINT('',#416);
#144=VERTEX_POINT('',#421);
#145=VERTEX_POINT('',#422);
#146=VERTEX_POINT('',#432);
#147=VERTEX_POINT('',#436);
#148=VERTEX_POINT('',#443);
#149=VERTEX_POINT('',#445);
#150=VERTEX_POINT('',#449);
#151=VERTEX_POINT('',#453);
#152=LINE('',#384,#188);
#153=LINE('',#387,#189);
#154=LINE('',#389,#190);
#155=LINE('',#391,#191);
#156=LINE('',#393,#192);
#157=LINE('',#395,#193);
#158=LINE('',#397,#194);
#159=LINE('',#399,#195);
#160=LINE('',#401,#196);
#161=LINE('',#404,#197);
#162=LINE('',#406,#198);
#163=LINE('',#408,#199);
#164=LINE('',#409,#200);
#165=LINE('',#412,#201);
#166=LINE('',#413,#202);
#167=LINE('',#415,#203);
#168=LINE('',#417,#204);
#169=LINE('',#418,#205);
#170=LINE('',#420,#206);
#171=LINE('',#423,#207);
#172=LINE('',#424,#208);
#173=LINE('',#426,#209);
#174=LINE('',#428,#210);
#175=LINE('',#431,#211);
#176=LINE('',#433,#212);
#177=LINE('',#435,#213);
#178=LINE('',#437,#214);
#179=LINE('',#439,#215);
#180=LINE('',#442,#216);
#181=LINE('',#444,#217);
#182=LINE('',#446,#218);
#183=LINE('',#448,#219);
#184=LINE('',#450,#220);
#185=LINE('',#452,#221);
#186=LINE('',#454,#222);
#187=LINE('',#456,#223);
#188=VECTOR('',#318,1000.);
#189=VECTOR('',#319,1000.);
#190=VECTOR('',#320,1000.);
#191=VECTOR('',#321,1000.);
#192=VECTOR('',#322,1000.);
#193=VECTOR('',#323,1000.);
#194=VECTOR('',#324,1000.);
#195=VECTOR('',#325,1000.);
#196=VECTOR('',#328,1000.);
#197=VECTOR('',#329,1000.);
#198=VECTOR('',#330,1000.);
#199=VECTOR('',#331,1000.);
#200=VECTOR('',#332,1000.);
#201=VECTOR('',#333,1000.);
#202=VECTOR('',#334,1000.);
#203=VECTOR('',#335,1000.);
#204=VECTOR('',#336,1000.);
#205=VECTOR('',#337,1000.);
#206=VECTOR('',#340,1000.);
#207=VECTOR('',#341,1000.);
#208=VECTOR('',#342,1000.);
#209=VECTOR('',#345,1000.);
#210=VECTOR('',#348,1000.);
#211=VECTOR('',#353,1000.);
#212=VECTOR('',#354,1000.);
#213=VECTOR('',#357,1000.);
#214=VECTOR('',#358,1000.);
#215=VECTOR('',#361,1000.);
#216=VECTOR('',#366,1000.);
#217=VECTOR('',#367,1000.);
#218=VECTOR('',#368,1000.);
#219=VECTOR('',#371,1000.);
#220=VECTOR('',#372,1000.);
#221=VECTOR('',#375,1000.);
#222=VECTOR('',#376,1000.);
#223=VECTOR('',#379,1000.);
#224=EDGE_LOOP('',(#20,#21,#22,#23,#24,#25,#26,#27));
#225=EDGE_LOOP('',(#28,#29,#30,#31));
#226=EDGE_LOOP('',(#32,#33,#34,#35,#36,#37,#38,#39));
#227=EDGE_LOOP('',(#40,#41,#42,#43));
#228=EDGE_LOOP('',(#44,#45,#46,#47));
#229=EDGE_LOOP('',(#48,#49,#50,#51));
#230=EDGE_LOOP('',(#52,#53,#54,#55));
#231=EDGE_LOOP('',(#56,#57,#58,#59));
#232=EDGE_LOOP('',(#60,#61,#62,#63));
#233=EDGE_LOOP('',(#64,#65,#66,#67));
#234=EDGE_LOOP('',(#68,#69,#70,#71));
#235=EDGE_LOOP('',(#72,#73,#74,#75));
#236=EDGE_LOOP('',(#76,#77,#78,#79));
#237=EDGE_LOOP('',(#80,#81,#82,#83));
#238=EDGE_LOOP('',(#84,#85,#86,#87));
#239=EDGE_LOOP('',(#88,#89,#90,#91));
#240=FACE_BOUND('',#224,.T.);
#241=FACE_BOUND('',#225,.T.);
#242=FACE_BOUND('',#226,.T.);
#243=FACE_BOUND('',#227,.T.);
#244=FACE_BOUND('',#228,.T.);
#245=FACE_BOUND('',#229,.T.);
#246=FACE_BOUND('',#230,.T.);
#247=FACE_BOUND('',#231,.T.);
#248=FACE_BOUND('',#232,.T.);
#249=FACE_BOUND('',#233,.T.);
#250=FACE_BOUND('',#234,.T.);
#251=FACE_BOUND('',#235,.T.);
#252=FACE_BOUND('',#236,.T.);
#253=FACE_BOUND('',#237,.T.);
#254=FACE_BOUND('',#238,.T.);
#255=FACE_BOUND('',#239,.T.);
#256=PLANE('',#299);
#257=PLANE('',#300);
#258=PLANE('',#301);
#259=PLANE('',#302);
#260=PLANE('',#303);
#261=PLANE('',#304);
#262=PLANE('',#305);
#263=PLANE('',#306);
#264=PLANE('',#307);
#265=PLANE('',#308);
#266=PLANE('',#309);
#267=PLANE('',#310);
#268=PLANE('',#311);
#269=PLANE('',#312);
#270=PLANE('',#313);
#271=ADVANCED_FACE('',(#240),#256,.F.);
#272=ADVANCED_FACE('',(#241,#242),#257,.T.);
#273=ADVANCED_FACE('',(#243),#258,.F.);
#274=ADVANCED_FACE('',(#244),#259,.F.);
#275=ADVANCED_FACE('',(#245),#260,.F.);
#276=ADVANCED_FACE('',(#246),#261,.T.);
#277=ADVANCED_FACE('',(#247),#262,.T.);
#278=ADVANCED_FACE('',(#248),#263,.T.);
#279=ADVANCED_FACE('',(#249),#264,.T.);
#280=ADVANCED_FACE('',(#250),#265,.F.);
#281=ADVANCED_FACE('',(#251),#266,.F.);
#282=ADVANCED_FACE('',(#252),#267,.F.);
#283=ADVANCED_FACE('',(#253),#268,.F.);
#284=ADVANCED_FACE('',(#254),#269,.F.);
#285=ADVANCED_FACE('',(#255),#270,.T.);
#286=CLOSED_SHELL('',(#271,#272,#273,#274,#275,#276,#277,#278,#279,#280,
#281,#282,#283,#284,#285));
#287=STYLED_ITEM('',(#288),#295);
#288=PRESENTATION_STYLE_ASSIGNMENT((#289));
#289=SURFACE_STYLE_USAGE(.BOTH.,#290);
#290=SURFACE_SIDE_STYLE('',(#291));
#291=SURFACE_STYLE_FILL_AREA(#292);
#292=FILL_AREA_STYLE('',(#293));
#293=FILL_AREA_STYLE_COLOUR('',#294);
#294=COLOUR_RGB('',0.645180702209473,0.678915679454803,0.699999988079071);
#295=MANIFOLD_SOLID_BREP('',#286);
#296=SHAPE_DEFINITION_REPRESENTATION(#464,#297);
#297=SHAPE_REPRESENTATION('Part11',(#298),#459);
#298=AXIS2_PLACEMENT_3D('',#382,#314,#315);
#299=AXIS2_PLACEMENT_3D('',#383,#316,#317);
#300=AXIS2_PLACEMENT_3D('',#400,#326,#327);
#301=AXIS2_PLACEMENT_3D('',#419,#338,#339);
#302=AXIS2_PLACEMENT_3D('',#425,#343,#344);
#303=AXIS2_PLACEMENT_3D('',#427,#346,#347);
#304=AXIS2_PLACEMENT_3D('',#429,#349,#350);
#305=AXIS2_PLACEMENT_3D('',#430,#351,#352);
#306=AXIS2_PLACEMENT_3D('',#434,#355,#356);
#307=AXIS2_PLACEMENT_3D('',#438,#359,#360);
#308=AXIS2_PLACEMENT_3D('',#440,#362,#363);
#309=AXIS2_PLACEMENT_3D('',#441,#364,#365);
#310=AXIS2_PLACEMENT_3D('',#447,#369,#370);
#311=AXIS2_PLACEMENT_3D('',#451,#373,#374);
#312=AXIS2_PLACEMENT_3D('',#455,#377,#378);
#313=AXIS2_PLACEMENT_3D('',#457,#380,#381);
#314=DIRECTION('',(0.,0.,1.));
#315=DIRECTION('',(1.,0.,0.));
#316=DIRECTION('',(0.,1.,0.));
#317=DIRECTION('',(0.,0.,1.));
#318=DIRECTION('',(0.588345888068334,0.,0.808609371695062));
#319=DIRECTION('',(1.,0.,0.));
#320=DIRECTION('',(0.588345888068334,0.,-0.808609371695062));
#321=DIRECTION('',(-1.,0.,-6.60847038467355E-17));
#322=DIRECTION('',(0.588345888068334,0.,-0.808609371695062));
#323=DIRECTION('',(1.,0.,1.83697019872103E-16));
#324=DIRECTION('',(0.588345888068334,0.,0.808609371695063));
#325=DIRECTION('',(-1.,0.,-6.60847038467355E-17));
#326=DIRECTION('',(6.60847038467355E-17,-8.23216200706065E-17,-1.));
#327=DIRECTION('',(0.,1.,-8.23216200706065E-17));
#328=DIRECTION('',(0.195726742867081,0.980658473744373,-6.7794850457348E-17));
#329=DIRECTION('',(-1.,0.,-6.60847038467355E-17));
#330=DIRECTION('',(0.19572674286708,-0.980658473744374,9.36639381318623E-17));
#331=DIRECTION('',(1.,0.,6.60847038467355E-17));
#332=DIRECTION('',(-1.,0.,-6.73127250345303E-17));
#333=DIRECTION('',(0.,-1.,0.));
#334=DIRECTION('',(0.195726742867081,0.980658473744373,0.));
#335=DIRECTION('',(-1.,0.,0.));
#336=DIRECTION('',(-0.19572674286708,0.980658473744373,-9.36639381318623E-17));
#337=DIRECTION('',(0.,-1.,0.));
#338=DIRECTION('',(1.77276022025747E-16,-0.262081602731242,-0.965045715761602));
#339=DIRECTION('',(0.,0.965045715761603,-0.262081602731242));
#340=DIRECTION('',(1.,0.,0.));
#341=DIRECTION('',(0.00191950671670065,0.965043937901583,-0.262081119910173));
#342=DIRECTION('',(-0.00191950671669899,0.965043937901583,-0.262081119910174));
#343=DIRECTION('',(0.798280165139115,-0.159326392216341,-0.580830335544547));
#344=DIRECTION('',(-0.588345888068334,0.,-0.808609371695062));
#345=DIRECTION('',(0.588345888068334,0.,0.808609371695062));
#346=DIRECTION('',(-0.798280165139115,-0.15932639221634,-0.580830335544548));
#347=DIRECTION('',(-0.588345888068334,0.,0.808609371695062));
#348=DIRECTION('',(0.588345888068338,0.,-0.808609371695059));
#349=DIRECTION('',(0.,1.,0.));
#350=DIRECTION('',(0.,0.,1.));
#351=DIRECTION('',(0.808609371695062,0.,-0.588345888068334));
#352=DIRECTION('',(-0.588345888068334,0.,-0.808609371695062));
#353=DIRECTION('',(0.588345888068334,0.,0.808609371695062));
#354=DIRECTION('',(0.,-1.,0.));
#355=DIRECTION('',(0.,0.,-1.));
#356=DIRECTION('',(-1.,0.,0.));
#357=DIRECTION('',(1.,0.,0.));
#358=DIRECTION('',(0.,-1.,0.));
#359=DIRECTION('',(-0.808609371695062,0.,-0.588345888068334));
#360=DIRECTION('',(-0.588345888068334,0.,0.808609371695062));
#361=DIRECTION('',(0.588345888068334,0.,-0.808609371695062));
#362=DIRECTION('',(0.,1.,0.));
#363=DIRECTION('',(0.,0.,1.));
#364=DIRECTION('',(0.980658473744373,-0.195726742867081,8.21233367598983E-17));
#365=DIRECTION('',(0.195726742867081,0.980658473744373,0.));
#366=DIRECTION('',(-6.73127250345303E-17,8.23216200706066E-17,1.));
#367=DIRECTION('',(0.195726742867081,0.980658473744373,-6.7794850457348E-17));
#368=DIRECTION('',(-6.73127250345303E-17,8.23216200706066E-17,1.));
#369=DIRECTION('',(-5.44019988254951E-33,-1.,8.23216200706066E-17));
#370=DIRECTION('',(0.,-8.23216200706066E-17,-1.));
#371=DIRECTION('',(-6.73127250345303E-17,8.23216200706066E-17,1.));
#372=DIRECTION('',(1.,0.,6.60847038467355E-17));
#373=DIRECTION('',(-0.980658473744374,-0.19572674286708,-4.98982516319761E-17));
#374=DIRECTION('',(0.19572674286708,-0.980658473744374,0.));
#375=DIRECTION('',(-6.73127250345303E-17,8.23216200706066E-17,1.));
#376=DIRECTION('',(0.19572674286708,-0.980658473744374,9.36639381318623E-17));
#377=DIRECTION('',(5.44019988254951E-33,1.,-8.23216200706066E-17));
#378=DIRECTION('',(0.,8.23216200706066E-17,1.));
#379=DIRECTION('',(-1.,0.,-6.60847038467355E-17));
#380=DIRECTION('',(6.60847038467355E-17,-8.23216200706065E-17,-1.));
#381=DIRECTION('',(0.,1.,-8.23216200706065E-17));
#382=CARTESIAN_POINT('',(0.,0.,0.));
#383=CARTESIAN_POINT('',(0.,0.,-20.6156630332686));
#384=CARTESIAN_POINT('',(-103.084430177915,0.,-41.2313260665372));
#385=CARTESIAN_POINT('',(-103.084430177915,0.,-41.2313260665372));
#386=CARTESIAN_POINT('',(-74.9809099022538,0.,-2.60647912975969));
#387=CARTESIAN_POINT('',(-74.9809099022538,0.,-2.60647912975969));
#388=CARTESIAN_POINT('',(74.9809099022538,0.,-2.60647912975969));
#389=CARTESIAN_POINT('',(74.9809099022538,0.,-2.60647912975969));
#390=CARTESIAN_POINT('',(103.084430177915,0.,-41.2313260665372));
#391=CARTESIAN_POINT('',(-105.,0.,-41.2313260665372));
#392=CARTESIAN_POINT('',(105.,0.,-41.2313260665372));
#393=CARTESIAN_POINT('',(75.,0.,2.75545529808154E-14));
#394=CARTESIAN_POINT('',(75.,-6.93889390390723E-15,2.76550642982222E-14));
#395=CARTESIAN_POINT('',(-75.,0.,0.));
#396=CARTESIAN_POINT('',(-75.,0.,-1.73472347597681E-15));
#397=CARTESIAN_POINT('',(-75.,0.,0.));
#398=CARTESIAN_POINT('',(-105.,0.,-41.2313260665372));
#399=CARTESIAN_POINT('',(-105.,0.,-41.2313260665372));
#400=CARTESIAN_POINT('',(2.7247599723153E-15,-3.39422955945677E-15,-41.2313260665372));
#401=CARTESIAN_POINT('',(-95.4463179628355,7.65,-41.2313260665372));
#402=CARTESIAN_POINT('',(-95.4463179628355,7.65,-41.2313260665372));
#403=CARTESIAN_POINT('',(-69.4999999999999,137.65,-41.2313260665372));
#404=CARTESIAN_POINT('',(95.4463179628355,7.65,-41.2313260665372));
#405=CARTESIAN_POINT('',(95.4463179628355,7.64999999999999,-41.2313260665372));
#406=CARTESIAN_POINT('',(69.5000000000001,137.65,-41.2313260665372));
#407=CARTESIAN_POINT('',(69.5000000000001,137.65,-41.2313260665372));
#408=CARTESIAN_POINT('',(-69.4999999999999,137.65,-41.2313260665372));
#409=CARTESIAN_POINT('',(103.084430177915,1.5,-41.2313260665372));
#410=CARTESIAN_POINT('',(103.084430177915,1.5,-41.2313260665372));
#411=CARTESIAN_POINT('',(-103.084430177915,1.5,-41.2313260665372));
#412=CARTESIAN_POINT('',(-103.084430177915,1.5,-41.2313260665372));
#413=CARTESIAN_POINT('',(-105.,0.,-41.2313260665372));
#414=CARTESIAN_POINT('',(-75.9999999999999,145.3,-41.2313260665372));
#415=CARTESIAN_POINT('',(76.0000000000001,145.3,-41.2313260665372));
#416=CARTESIAN_POINT('',(76.0000000000001,145.3,-41.2313260665372));
#417=CARTESIAN_POINT('',(105.,0.,-41.2313260665372));
#418=CARTESIAN_POINT('',(103.084430177915,1.5,-41.2313260665372));
#419=CARTESIAN_POINT('',(-2.35700909889548E-30,3.4845587983745E-15,1.28309599172405E-14));
#420=CARTESIAN_POINT('',(-74.7109931320401,145.3,-39.459743984042));
#421=CARTESIAN_POINT('',(-74.7109931320401,145.3,-39.459743984042));
#422=CARTESIAN_POINT('',(74.7109931320404,145.3,-39.459743984042));
#423=CARTESIAN_POINT('',(-74.8554965660201,72.65,-19.729871992021));
#424=CARTESIAN_POINT('',(74.8554965660202,72.65,-19.729871992021));
#425=CARTESIAN_POINT('',(-74.8554965660201,72.65,-19.729871992021));
#426=CARTESIAN_POINT('',(-75.9999999999999,145.3,-41.2313260665372));
#427=CARTESIAN_POINT('',(74.8554965660202,72.65,-19.729871992021));
#428=CARTESIAN_POINT('',(74.7109931320403,145.3,-39.459743984042));
#429=CARTESIAN_POINT('',(1.14491749414469E-13,145.3,-40.3455350252896));
#430=CARTESIAN_POINT('',(-103.084430177915,1.5,-41.2313260665372));
#431=CARTESIAN_POINT('',(-103.084430177915,1.5,-41.2313260665372));
#432=CARTESIAN_POINT('',(-74.9809099022538,1.5,-2.60647912975969));
#433=CARTESIAN_POINT('',(-74.9809099022538,1.5,-2.60647912975969));
#434=CARTESIAN_POINT('',(-74.9809099022538,1.5,-2.60647912975969));
#435=CARTESIAN_POINT('',(-74.9809099022538,1.5,-2.60647912975969));
#436=CARTESIAN_POINT('',(74.9809099022538,1.5,-2.60647912975969));
#437=CARTESIAN_POINT('',(74.9809099022538,1.5,-2.60647912975969));
#438=CARTESIAN_POINT('',(74.9809099022538,1.5,-2.60647912975969));
#439=CARTESIAN_POINT('',(74.9809099022538,1.5,-2.60647912975969));
#440=CARTESIAN_POINT('',(0.,1.5,0.));
#441=CARTESIAN_POINT('',(-95.4463179628355,7.65,-45.2313260665372));
#442=CARTESIAN_POINT('',(-69.4999999999999,137.65,-45.2313260665372));
#443=CARTESIAN_POINT('',(-69.4999999999999,137.65,-45.2313260665372));
#444=CARTESIAN_POINT('',(-95.4463179628355,7.65,-45.2313260665372));
#445=CARTESIAN_POINT('',(-95.4463179628355,7.65,-45.2313260665372));
#446=CARTESIAN_POINT('',(-95.4463179628355,7.65,-45.2313260665372));
#447=CARTESIAN_POINT('',(-69.4999999999999,137.65,-45.2313260665372));
#448=CARTESIAN_POINT('',(69.5000000000001,137.65,-45.2313260665372));
#449=CARTESIAN_POINT('',(69.5000000000001,137.65,-45.2313260665372));
#450=CARTESIAN_POINT('',(-69.4999999999999,137.65,-45.2313260665372));
#451=CARTESIAN_POINT('',(69.5000000000001,137.65,-45.2313260665372));
#452=CARTESIAN_POINT('',(95.4463179628355,7.64999999999999,-45.2313260665372));
#453=CARTESIAN_POINT('',(95.4463179628355,7.64999999999999,-45.2313260665372));
#454=CARTESIAN_POINT('',(69.5000000000001,137.65,-45.2313260665372));
#455=CARTESIAN_POINT('',(95.4463179628355,7.65,-45.2313260665372));
#456=CARTESIAN_POINT('',(95.4463179628355,7.65,-45.2313260665372));
#457=CARTESIAN_POINT('',(2.99401087245342E-15,-3.72351603973919E-15,-45.2313260665372));
#458=MECHANICAL_DESIGN_GEOMETRIC_PRESENTATION_REPRESENTATION('',(#287),
#459);
#459=(
GEOMETRIC_REPRESENTATION_CONTEXT(3)
GLOBAL_UNCERTAINTY_ASSIGNED_CONTEXT((#460))
GLOBAL_UNIT_ASSIGNED_CONTEXT((#463,#462,#461))
REPRESENTATION_CONTEXT('Part11','TOP_LEVEL_ASSEMBLY_PART')
);
#460=UNCERTAINTY_MEASURE_WITH_UNIT(LENGTH_MEASURE(0.005),#463,
'DISTANCE_ACCURACY_VALUE','Maximum Tolerance applied to model');
#461=(
NAMED_UNIT(*)
SI_UNIT($,.STERADIAN.)
SOLID_ANGLE_UNIT()
);
#462=(
NAMED_UNIT(*)
PLANE_ANGLE_UNIT()
SI_UNIT($,.RADIAN.)
);
#463=(
LENGTH_UNIT()
NAMED_UNIT(*)
SI_UNIT(.MILLI.,.METRE.)
);
#464=PRODUCT_DEFINITION_SHAPE('','',#465);
#465=PRODUCT_DEFINITION('','',#467,#466);
#466=PRODUCT_DEFINITION_CONTEXT('',#473,'design');
#467=PRODUCT_DEFINITION_FORMATION_WITH_SPECIFIED_SOURCE('','',#469,
 .NOT_KNOWN.);
#468=PRODUCT_RELATED_PRODUCT_CATEGORY('','',(#469));
#469=PRODUCT('Part11','Part11','Part11',(#471));
#470=PRODUCT_CATEGORY('','');
#471=PRODUCT_CONTEXT('',#473,'mechanical');
#472=APPLICATION_PROTOCOL_DEFINITION('international standard',
'automotive_design',2010,#473);
#473=APPLICATION_CONTEXT(
'core data for automotive mechanical design processes');
ENDSEC;
END-ISO-10303-21;
